Sean (seanthebassman) wrote in brownbagescape,
Sean
seanthebassman
brownbagescape

Hey Brad Heres one of the tabs for the band........

 


By:Brown Bag Escape
PLAY 2 TIMES
G|---------------0-2-0-------------------------------------------------------|
D|-------0-2-3-3-------------------------------------------------------------|
A|-3-3-3---------------3-3-3-3-----------------------------------------------|
E|---------------------------------------------------------------------------|
PLAY ONE TIME
G|---------------0-2-0-------------------------------------------------------|
D|-------0-2-3-3---------------0-2-3-3-5-3-2---------------------------------|
A|-3-3-3----------------3-3-3------------------------------------------------|
E|---------------------------------------------------------------------------|
G|---------------0-2-0-------------------------------------------------------|
D|-------0-2-3-3---------------0-2-3-----------------------------------------|
A|-3-3-3----------------3-3-3------------------------------------------------|
E|---------------------------------------------------------------------------|
G|---------------------------------------------------------------------------|
D|------------------------------3-3-3-2-0------------------------------------|
A|-3-3-3-3-3----------------------------------------------------------------|
E|-----------3-3-3-3-3-1-1-1-1----------------------------------------------|
G|---------------------------------------------------------------------------|
D|-----------2-3-5-5-5-5-5-3-3-3-3-3-5-3-2-3-2-------------------------------|
A|-3-3-3-3-3-----------------------------------------------------------------|
E|---------------------------------------------------------------------------|
G|---------------------------------------------------------------------------|
D|---------------------------------------------------------------------------|
A|-3-3-3-3-3-----------------------------------------------------------------|
E|-----------3-3-3-3-3-1-1-1-1-1-1-1-1-1-1-----------------------------------|
G|---------------------------------------------------------------------------|
D|-----------2-3-5-5-5-5-5-3-3-3-3-3-5-3-2-3-2-------------------------------|
A|-3-3-3-3-3-----------------------------------------------------------------|
E|---------------------------------------------------------------------------|
VERSE
G|---------------------------------------------------------------------------|
D|----------2----------------------------------------------------------------|
A|-3-3-3-3------------2-----3-----3-----3---3-2-0----------------------------|
E|------------3-3-3-3----1-1---1-1---1-1---1---------------------------------|
G|---------------------------------------------------------------------------|
D|----------2-------------------------------------2-3-5-5-5-5-5-3-3-3-3-2----|
A|-3-3-3-3------------2-----3-----3-----3---3--------------------------------|
E|------------3-3-3-3----1-1---1-1---1-1---1---------------------------------|
G|---5-----5---5----5-------------------------------------------------------|
D|----------------------5-5-5-5-3-3-3-3-2-2-2-2-3-3-3-3-3--------------------|
A|-3---3-3---3---3-3---------------------------------------------------------|
E|---------------------------------------------------------------------------|
G|---------------------------------------------------------------------------|
D|------------------------------3-3-3-2-0------------------------------------|
A|-3-3-3-3-3-----------------------------------------------------------------|
E|-----------3-3-3-3-3-1-1-1-1-----------------------------------------------|
G|---------------------------------------------------------------------------|
D|-----------2-3-5-5-5-5-5-3-3-3-3-3-5-3-2-3-2-------------------------------|
A|-3-3-3-3-3-----------------------------------------------------------------|
E|---------------------------------------------------------------------------|
G|---------------------------------------------------------------------------|
D|---------------------------------------------------------------------------|
A|-3-3-3-3-3-----------------------------------------------------------------|
E|-----------3-3-3-3-3-1-1-1-1-1-1-1-1-1-1-----------------------------------|

CHORUS
G|---------------------------------------------------------------------------|
D|-----------------------------------3-3-3-3-3-------------------------------|
A|--3-3-3-3-3----------------------------------------------------------------|
E|-------------3-3-3-3-3--1-1-1-1-1------------------------------------------|
G|---------------------------------------------------------------------------|
D|-----------2-3-5-5-5-5-5-3-3-3-3-3-5-3-2-3-2-------------------------------|
A|-3-3-3-3-3-----------------------------------------------------------------|
E|---------------------------------------------------------------------------|

G|---------------------------------------------------------------------------|
D|---------------------------------3-3-3-3-3---------------------------------|
A|-3-3-3-3-3-----------------------------------------------------------------|
E|-----------3-3-3-3-3-1-1-1-1-1---------------------------------------------|
G|---------------------------------------------------------------------------|
D|------------------------------3-3-3-3-3------------------------------------|
A|-3-3-3-3-3-----------------------------------------------------------------|
E|-----------3-3-3-3-3-1-1-1-1-----------------------------------------------|
After chorus play this riff again
G|---------------0-2-0-------------------------------------------------------|
D|-------0-2-3-3---------------0-2-3-3-5-3-2---------------------------------|
A|-3-3-3----------------3-3-3------------------------------------------------|
E|---------------------------------------------------------------------------|
G|---------------0-2-0-------------------------------------------------------|
D|-------0-2-3-3---------------0-2-3-----------------------------------------|
A|-3-3-3----------------3-3-3------------------------------------------------|
E|---------------------------------------------------------------------------|
Verse 2- Play 3 times
G|-------------------------------------------------------------------------|
D|-------------------------------------------------------------------------|
A|-3-3-3-3-3---------------------------------------------------------------|
E|-----------3-3-3-3-3-1-1-1-1-1-1-1-1-1-1-1-1------------------------------|
Then this once
G|------------------------------------------------------------------------|
D|---------------------------------------------------------------------|
A|-3-3-3-3-3------------------------------------------------------------|
E|-----------3-3-3-3-3-1-1-1-1-1-1-1-1-3-3-3-3---------------------------|
Then play the chorus again
Then this...
play 3 times times
G|-------------------------------------------------------------------------|
D|----3-----3-3/5-5--------------------------------------------------------|
A|--------------------3-3-3-3-3-3-3-3-3-3-3--------------------------------|
E|-3-3--3-3---------------------------------------|
Play once
G|---------------------------------------------------------------------------|
D|----3-----3-3/5-5----------------------------------------------------------|
A|---------------------------------------------------------------------------|
E|-3-3--3-3---------------------------------------|
/= hammer on
Note: In this part durring the repeted "3's" I would do some fancey stuff
But it was useually improve so just play with it a bit.
Slow Part
G|---------------------------------------------------------------------------|
D|-----2*--------5*-3*-3/5------2*---------5*--3*-3-3-3-3-3-3-3------------|
A|--3*----1*--3*-------------3*----1*--3*-----------------------------------|
E|---------------------------------------------|
*= Let Ring
Then this after the solo
PLay 2 times
G|-----------------------------------------------------|
D|-----------------------------------------------------|
A|--3-3-3-3-3------------------------------------------|
E|------------3-3-3-3-3-1-1-1-1------------------------|
G|------------------------------------------------|
D|---------5-5-5-5-3-3-3-3-3-3-3-3----------------|
A|-3-3-3-3----------------------------------------|
E|------------------------------------------------|
then end it with that 3a note's
So there you have it. If you play with the rythem it can make some cool variations.



Subscribe
  • Post a new comment

    Error

    default userpic
  • 1 comment
thank you for the tab and LJ cut. you've done the world a favor.